(intro)

(1ª parte)

E |--------------------------|--3-----6--3-------3--|
B |---3-----------------3----|----3-6------6-3-6----|
G |-------3-5---5---3-5------|----------------------|
D |-5---5-----3---3--------1-|----------------------|
A |--------------------------|----------------------|
E |--------------------------|----------------------|


(2ª parte)                      (abafado)

E |-------------------------|-~-------------------|
B |---3-----------------3---|-3-------------------|
G |-------3-5---5---3-5-----|-3-------------------|
D |-5---5-----3---3---------|-1-------------------|
A |-------------------------|---------------------|
E |-------------------------|---------------------|


(base)

E |-------------------------|--------------------|
B |---3---------------------|--------------------|
G |-------3-5---5---3-5-7---|-777-10-710-710-----|
D |-5---5-----3---3---------|-888--8-8-8-8-8-----|
A |-5---5-----3---3---------|-666--6-6-6-6-6-----|
E |-3---3-----1---1---------|--------------------|


Gm                       F                   Eb
  que bom viver, como é bom sonhar e o que ficou pra trás passou e eu não me
       Gm                F
Importei     foi ate melhor
            Eb
Tive que pensar em algo novo que eu fizesse sentido
      Gm                        F
Ainda vejo o mundo com os olhos de criança
        Eb
Que só quer brincar e não tanta "responsa"
      Gm
Mas a vida cobra sério
      F                  Eb
E realmente não dá pra fugir


       Eb
E |-----6-------------------|
B |-----6--8~---------------|
G |-----8----7~-------------|
D |-----8------8~-----------|
A |-----6-------------------|
E |-------------------------|


(refrão 2x)
 Bb                F
mas livre pra poder sorrir (sim)
Gm                 Eb
livre pra poder buscar
        Bb    F  Ebm
o meu lugar ao sol


E |-----1~-----------------1~--------66666------|
B |-----1~-----------------1~--------77777------|
G |-333-2~-------------333-2~---8888888888------|
D |-333-3~-55555-88888-333-3~---8888888888------|
A |-111-1~-55555-66666-111-1~---6666666666------|
E |--------33333--------------------------------|


(base)

E |-------------------------|--------------------|
B |---3---------------------|--------------------|
G |-------3-5---5---3-5-7---|-777-10-710-710-----|
D |-5---5-----3---3---------|-888--8-8-8-8-8-----|
A |-5---5-----3---3---------|-666--6-6-6-6-6-----|
E |-3---3-----1---1---------|--------------------|


Gm                    F
  um dia eu espero te reencontrar
      Eb
Numa bem melhor, cada um tem seu caminho
   Gm                 F
Eu sei que foi até melhor
          Eb
Irmãos do mesmo cristo, quero e não desisto
     Gm
Caro pai como é bom
          F                      Eb
Ter com o que se orgulhar a vida pode passar, não estou sozinho
    Gm
Eu sei se eu tiver fé
          F         Eb
Eu volto até sonhar


       Eb
E |-----6----------10~------|
B |-----6--8~------11~------|
G |-----8----7~-----8~------|
D |-----8------8~-----------|
A |-----6-------------------|
E |-------------------------|


(refrão 2x)
 Bb                F
mas livre pra poder sorrir (sim)
Gm                 Eb
livre pra poder buscar
        Bb    F  Ebm
o meu lugar ao sol


E |-----1~-----------------1~--------66666------|
B |-----1~-----------------1~--------77777------|
G |-333-2~-------------333-2~---8888888888------|
D |-333-3~-55555-88888-333-3~---8888888888------|
A |-111-1~-55555-66666-111-1~---6666666666------|
E |--------33333--------------------------------|


(base)

E |-------------------------|--------------------|
B |---3---------------------|--------------------|
G |-------3-5---5---3-5-7---|-777-10-710-710-----|
D |-5---5-----3---3---------|-888--8-8-8-8-8-----|
A |-5---5-----3---3---------|-666--6-6-6-6-6-----|
E |-3---3-----1---1---------|--------------------|


   Gm      F
O amor é assim
    Eb
É a paz de deus em sua casa
   Gm      F
O amor é assim
  Eb
A paz de deus que nunca acaba
   Gm      F
O amor é assim
    Eb
É a paz de deus em sua casa

O amor é assim
É a paz de Deus que         (2ª parte da intro)
... nunca acaba!!!

(1ª guitarra 3x)

E |-------------------------------|
B |-------------------------------|
G |--5-5-5-5-5-8-8-8-8-8-8-8------|
D |--5-5-5-5-5-8-8-8-8-8-8-8------|
A |--3-3-3-0-3-6-6-6-6-6-6-6------|
E |-------------------------------|


(2ª guitarra 2x) (nas duas 1ªs vezes bem baixinho)

E |-------------------------|
B |-1313-13--8--------------|
G |--x-x--x--x--------------|
D |-1010-10--5--------------|
A |-------------------------|
E |-------------------------|


(2ª guitarra) (na terceira vez)

E |---------------------------|
B |-13-11-13-13-13-15-13-11-7-|
G |--x--x--x--x--x--x--x--x-x-|
D |-10--8-10-10-10-12-10--8-5-|
A |---------------------------|
E |---------------------------|



E |----3-----------8-6-8-6...2ªguita-----|
B |----3---------------------------------|
G |----3---------------------------------|
D |--5-5---5-4-3--3-3-3-3----------------|
A |--5-5---5-4-3--3-3-3-3----------------|
E |--3-3---3-2-1--1-1-1-1----------------|


(base) Gm F Eb (guitarra 1)

(solo) (guitarra 2)

E |-10-13-10-13-10-13-10-13-10-13/15-1515151515-131313131313-10-8-6-8-8/10-66----------|
B |-------------------------------------------------------------------------6----------|
G |-------------------------------------------------------------------------710-710-710|
D |-------------------------------------------------------------------------8-8-8-8-8-8|
A |-------------------------------------------------------------------------6-6-6-6-6-6|
E |------------------------------------------------------------------------------------|


(base)

E |-------------------------|--------------------|
B |---3---------------------|--------------------|
G |-------3-5---5---3-5-7---|-777-10-710-710-----|
D |-5---5-----3---3---------|-888--8-8-8-8-8-----|
A |-5---5-----3---3---------|-666--6-6-6-6-6-----|
E |-3---3-----1---1---------|--------------------|


       Gm
Nossas vidas, nossos sonhos
      F           Eb
Têm o mesmo valor
       Gm
Nossas vidas, nossos sonhos
      F
Têm o mesmo valor...
      Eb
...eu vou com você para onde você for
Gm                    F
  eu descobri que é azul
           Eb
A cor da parede da casa de deus

(2ª parte da intro)
Gm                F                  Eb
  e não há mais ninguém como você e eu!!!
  Lefties
Gm|3,2333|,13215363|,13214353,12345|3,233364|15,2333|10,334352,23456|5,31435462,3456|15,233364|7,24324152,2345|12,142254,12345|12,14223144,1234|17,31435462,3456|19,24324152,2345 F|1,233342|,11334251,12345|5,243352,23456|3,31435463,3456|8,334353,23456|13,233342|10,142364|10,142354,12345|17,243352,23456|20,334353,23456|15,31435463,3456 Eb|,31435463,3456|3,243352,23456|6,334353,23456|11,233342|8,142364|8,142354,12345|15,243352,23456|18,334353,23456|13,31435463,3456 Bb|1,334353,23456|,21435361,23456|6,233342|3,142364|3,142354,12345|10,243341515261,23456|13,334353,23456|8,31435463,3456|18,233342|15,142364|15,142354,12345 Ebm|6,334352,23456|,31435462,3456|11,2333|3,24324152,2345|11,233364|8,142254,12345|8,14223144,1234|18,334352,23456|13,31435462,3456|15,24324152,2345
|/ceu-azul-easy-charlie-brown-jr|Céu azul|Charlie Brown Jr.|charlie-brown-jr.jpg |/pra-nao-dizer-que-nao-falei-das-flores-easy-charlie-brown-jr|Pra não dizer que não falei das flores|Charlie Brown Jr.|charlie-brown-jr.jpg |/corra-vagabundo-easy-charlie-brown-jr|Corra vagabundo|Charlie Brown Jr.|charlie-brown-jr.jpg |/so-os-loucos-sabem-sem-capotraste-easy-charlie-brown-jr|Só os loucos sabem (sem capotraste)|Charlie Brown Jr.|charlie-brown-jr.jpg |/viver-dias-de-sol-easy-charlie-brown-jr|Viver dias de sol|Charlie Brown Jr.|charlie-brown-jr.jpg |/cidade-grande-easy-charlie-brown-jr|Cidade grande|Charlie Brown Jr.|charlie-brown-jr.jpg |/dias-de-luta-dias-de-gloria-easy-charlie-brown-jr|Dias de luta, dias de glória|Charlie Brown Jr.|charlie-brown-jr.jpg |/local-easy-charlie-brown-jr|Local|Charlie Brown Jr.|charlie-brown-jr.jpg |/nao-deixe-o-mar-te-engolir-easy-charlie-brown-jr|Não deixe o mar te engolir|Charlie Brown Jr.|charlie-brown-jr.jpg |/nao-e-serio-easy-charlie-brown-jr|Não é sério|Charlie Brown Jr.|charlie-brown-jr.jpg |/aquela-paz-easy-charlie-brown-jr|Aquela paz|Charlie Brown Jr.|charlie-brown-jr.jpg |/ela-vai-voltar-easy-charlie-brown-jr|Ela vai voltar|Charlie Brown Jr.|charlie-brown-jr.jpg |/direto-e-reto-sempre-easy-charlie-brown-jr|Direto e reto sempre|Charlie Brown Jr.|charlie-brown-jr.jpg |/so-os-loucos-sabem-easy-charlie-brown-jr|Só os loucos sabem|Charlie Brown Jr.|charlie-brown-jr.jpg |/peso-da-batida-do-errado-que-deu-certo-easy-charlie-brown-jr|Peso da batida do errado que deu certo|Charlie Brown Jr.|charlie-brown-jr.jpg 12
|/easy-ed-sheeran|Ed Sheeran||ed-sheeran.jpg |/easy-coldplay|Coldplay||coldplay.jpg |/easy-justin-bieber|Justin Bieber||justin-bieber.jpg |/easy-bruno-mars|Bruno Mars||bruno-mars.jpg |/easy-adele|Adele||adele.jpg |/easy-oasis|Oasis||oasis.jpg |/easy-red-hot-chili-peppers|Red Hot Chili Peppers||red-hot-chili-peppers.jpg |/easy-the-beatles|The Beatles||the-beatles.jpg |/easy-creed|Creed||creed.jpg |/easy-sia|Sia||sia.jpg |/easy-nirvana|Nirvana||nirvana.jpg |/easy-green-day|Green Day||green-day.jpg |/easy-guns-n-roses|Guns N' Roses||guns-n-roses.jpg |/easy-jason-mraz|Jason Mraz||jason-mraz.jpg |/easy-avicii|Avicii||avicii.jpg 4